ISO-10303-21;
HEADER;
/* Generated by software containing ST-Developer
 * from STEP Tools, Inc. (www.steptools.com) 
 */
/* OPTION: strings as raw bytes, not using required /X/ escapes */

FILE_DESCRIPTION(
/* description */ ('Unknown'),
/* implementation_level */ '2;1');

FILE_NAME(
/* name */ 'D-BKF-2ES-2,5-VE',
/* time_stamp */ '2024-10-18T14:23:47-03:00',
/* author */ ('Unknown'),
/* organization */ ('Unknown'),
/* preprocessor_version */ 'ST-DEVELOPER v16.7',
/* originating_system */ 'Solid Edge',
/* authorisation */ 'Unknown');

FILE_SCHEMA (('AUTOMOTIVE_DESIGN {1 0 10303 214 3 1 1}'));
ENDSEC;

DATA;
#10=PROPERTY_DEFINITION_REPRESENTATION(#14,#12);
#11=PROPERTY_DEFINITION_REPRESENTATION(#15,#13);
#12=REPRESENTATION('',(#16),#647);
#13=REPRESENTATION('',(#17),#647);
#14=PROPERTY_DEFINITION('pmi validation property','',#652);
#15=PROPERTY_DEFINITION('pmi validation property','',#652);
#16=VALUE_REPRESENTATION_ITEM('number of annotations',COUNT_MEASURE(0.));
#17=VALUE_REPRESENTATION_ITEM('number of views',COUNT_MEASURE(0.));
#18=SHAPE_REPRESENTATION_RELATIONSHIP('','',#387,#19);
#19=ADVANCED_BREP_SHAPE_REPRESENTATION('',(#385),#647);
#20=CONICAL_SURFACE('',#422,1.49096510010316,0.0349065853955038);
#21=CONICAL_SURFACE('',#426,1.38126935440739,0.0349065853959362);
#22=TOROIDAL_SURFACE('',#419,1.24111739335236,0.249999999998213);
#23=TOROIDAL_SURFACE('',#428,1.24111739335235,0.249999999999576);
#24=CYLINDRICAL_SURFACE('',#398,1.4999999718);
#25=CYLINDRICAL_SURFACE('',#401,1.4999999718);
#26=CYLINDRICAL_SURFACE('',#404,1.9999999624);
#27=CYLINDRICAL_SURFACE('',#407,1.9999999624);
#28=CYLINDRICAL_SURFACE('',#412,1.9999999624);
#29=CYLINDRICAL_SURFACE('',#415,2.);
#30=LINE('',#546,#60);
#31=LINE('',#550,#61);
#32=LINE('',#554,#62);
#33=LINE('',#556,#63);
#34=LINE('',#558,#64);
#35=LINE('',#562,#65);
#36=LINE('',#566,#66);
#37=LINE('',#570,#67);
#38=LINE('',#576,#68);
#39=LINE('',#580,#69);
#40=LINE('',#582,#70);
#41=LINE('',#584,#71);
#42=LINE('',#586,#72);
#43=LINE('',#590,#73);
#44=LINE('',#592,#74);
#45=LINE('',#594,#75);
#46=LINE('',#598,#76);
#47=LINE('',#600,#77);
#48=LINE('',#602,#78);
#49=LINE('',#606,#79);
#50=LINE('',#608,#80);
#51=LINE('',#610,#81);
#52=LINE('',#612,#82);
#53=LINE('',#614,#83);
#54=LINE('',#616,#84);
#55=LINE('',#618,#85);
#56=LINE('',#622,#86);
#57=LINE('',#624,#87);
#58=LINE('',#626,#88);
#59=LINE('',#630,#89);
#60=VECTOR('',#435,1000.);
#61=VECTOR('',#438,1000.);
#62=VECTOR('',#441,1000.);
#63=VECTOR('',#442,1000.);
#64=VECTOR('',#443,1000.);
#65=VECTOR('',#446,1000.);
#66=VECTOR('',#449,1000.);
#67=VECTOR('',#452,1000.);
#68=VECTOR('',#459,1000.);
#69=VECTOR('',#462,1000.);
#70=VECTOR('',#465,1000.);
#71=VECTOR('',#466,1000.);
#72=VECTOR('',#469,1000.);
#73=VECTOR('',#474,1000.);
#74=VECTOR('',#475,1000.);
#75=VECTOR('',#478,1000.);
#76=VECTOR('',#483,1000.);
#77=VECTOR('',#484,1000.);
#78=VECTOR('',#487,1000.);
#79=VECTOR('',#492,1000.);
#80=VECTOR('',#493,1000.);
#81=VECTOR('',#496,1000.);
#82=VECTOR('',#497,1000.);
#83=VECTOR('',#500,1000.);
#84=VECTOR('',#501,1000.);
#85=VECTOR('',#504,1000.);
#86=VECTOR('',#509,1000.);
#87=VECTOR('',#510,1000.);
#88=VECTOR('',#513,1000.);
#89=VECTOR('',#518,1000.);
#90=ORIENTED_EDGE('',*,*,#186,.F.);
#91=ORIENTED_EDGE('',*,*,#187,.F.);
#92=ORIENTED_EDGE('',*,*,#188,.F.);
#93=ORIENTED_EDGE('',*,*,#189,.F.);
#94=ORIENTED_EDGE('',*,*,#190,.F.);
#95=ORIENTED_EDGE('',*,*,#191,.F.);
#96=ORIENTED_EDGE('',*,*,#192,.F.);
#97=ORIENTED_EDGE('',*,*,#193,.F.);
#98=ORIENTED_EDGE('',*,*,#194,.F.);
#99=ORIENTED_EDGE('',*,*,#195,.F.);
#100=ORIENTED_EDGE('',*,*,#196,.F.);
#101=ORIENTED_EDGE('',*,*,#197,.F.);
#102=ORIENTED_EDGE('',*,*,#198,.F.);
#103=ORIENTED_EDGE('',*,*,#199,.F.);
#104=ORIENTED_EDGE('',*,*,#200,.F.);
#105=ORIENTED_EDGE('',*,*,#201,.F.);
#106=ORIENTED_EDGE('',*,*,#186,.T.);
#107=ORIENTED_EDGE('',*,*,#202,.F.);
#108=ORIENTED_EDGE('',*,*,#203,.F.);
#109=ORIENTED_EDGE('',*,*,#204,.T.);
#110=ORIENTED_EDGE('',*,*,#199,.T.);
#111=ORIENTED_EDGE('',*,*,#205,.F.);
#112=ORIENTED_EDGE('',*,*,#206,.F.);
#113=ORIENTED_EDGE('',*,*,#202,.T.);
#114=ORIENTED_EDGE('',*,*,#198,.T.);
#115=ORIENTED_EDGE('',*,*,#207,.F.);
#116=ORIENTED_EDGE('',*,*,#208,.F.);
#117=ORIENTED_EDGE('',*,*,#205,.T.);
#118=ORIENTED_EDGE('',*,*,#197,.T.);
#119=ORIENTED_EDGE('',*,*,#209,.F.);
#120=ORIENTED_EDGE('',*,*,#210,.F.);
#121=ORIENTED_EDGE('',*,*,#207,.T.);
#122=ORIENTED_EDGE('',*,*,#196,.T.);
#123=ORIENTED_EDGE('',*,*,#211,.F.);
#124=ORIENTED_EDGE('',*,*,#212,.F.);
#125=ORIENTED_EDGE('',*,*,#209,.T.);
#126=ORIENTED_EDGE('',*,*,#195,.T.);
#127=ORIENTED_EDGE('',*,*,#213,.F.);
#128=ORIENTED_EDGE('',*,*,#214,.F.);
#129=ORIENTED_EDGE('',*,*,#211,.T.);
#130=ORIENTED_EDGE('',*,*,#194,.T.);
#131=ORIENTED_EDGE('',*,*,#215,.F.);
#132=ORIENTED_EDGE('',*,*,#216,.F.);
#133=ORIENTED_EDGE('',*,*,#213,.T.);
#134=ORIENTED_EDGE('',*,*,#193,.T.);
#135=ORIENTED_EDGE('',*,*,#217,.F.);
#136=ORIENTED_EDGE('',*,*,#218,.F.);
#137=ORIENTED_EDGE('',*,*,#215,.T.);
#138=ORIENTED_EDGE('',*,*,#192,.T.);
#139=ORIENTED_EDGE('',*,*,#219,.F.);
#140=ORIENTED_EDGE('',*,*,#220,.F.);
#141=ORIENTED_EDGE('',*,*,#217,.T.);
#142=ORIENTED_EDGE('',*,*,#191,.T.);
#143=ORIENTED_EDGE('',*,*,#221,.F.);
#144=ORIENTED_EDGE('',*,*,#222,.F.);
#145=ORIENTED_EDGE('',*,*,#219,.T.);
#146=ORIENTED_EDGE('',*,*,#190,.T.);
#147=ORIENTED_EDGE('',*,*,#223,.F.);
#148=ORIENTED_EDGE('',*,*,#224,.F.);
#149=ORIENTED_EDGE('',*,*,#221,.T.);
#150=ORIENTED_EDGE('',*,*,#189,.T.);
#151=ORIENTED_EDGE('',*,*,#225,.F.);
#152=ORIENTED_EDGE('',*,*,#226,.F.);
#153=ORIENTED_EDGE('',*,*,#223,.T.);
#154=ORIENTED_EDGE('',*,*,#188,.T.);
#155=ORIENTED_EDGE('',*,*,#227,.F.);
#156=ORIENTED_EDGE('',*,*,#228,.F.);
#157=ORIENTED_EDGE('',*,*,#225,.T.);
#158=ORIENTED_EDGE('',*,*,#187,.T.);
#159=ORIENTED_EDGE('',*,*,#204,.F.);
#160=ORIENTED_EDGE('',*,*,#229,.F.);
#161=ORIENTED_EDGE('',*,*,#227,.T.);
#162=ORIENTED_EDGE('',*,*,#203,.T.);
#163=ORIENTED_EDGE('',*,*,#206,.T.);
#164=ORIENTED_EDGE('',*,*,#208,.T.);
#165=ORIENTED_EDGE('',*,*,#210,.T.);
#166=ORIENTED_EDGE('',*,*,#212,.T.);
#167=ORIENTED_EDGE('',*,*,#214,.T.);
#168=ORIENTED_EDGE('',*,*,#216,.T.);
#169=ORIENTED_EDGE('',*,*,#218,.T.);
#170=ORIENTED_EDGE('',*,*,#220,.T.);
#171=ORIENTED_EDGE('',*,*,#222,.T.);
#172=ORIENTED_EDGE('',*,*,#224,.T.);
#173=ORIENTED_EDGE('',*,*,#226,.T.);
#174=ORIENTED_EDGE('',*,*,#228,.T.);
#175=ORIENTED_EDGE('',*,*,#229,.T.);
#176=ORIENTED_EDGE('',*,*,#230,.T.);
#177=ORIENTED_EDGE('',*,*,#231,.F.);
#178=ORIENTED_EDGE('',*,*,#200,.T.);
#179=ORIENTED_EDGE('',*,*,#230,.F.);
#180=ORIENTED_EDGE('',*,*,#231,.T.);
#181=ORIENTED_EDGE('',*,*,#232,.T.);
#182=ORIENTED_EDGE('',*,*,#233,.F.);
#183=ORIENTED_EDGE('',*,*,#201,.T.);
#184=ORIENTED_EDGE('',*,*,#232,.F.);
#185=ORIENTED_EDGE('',*,*,#233,.T.);
#186=EDGE_CURVE('',#234,#235,#268,.T.);
#187=EDGE_CURVE('',#236,#234,#30,.T.);
#188=EDGE_CURVE('',#237,#236,#269,.T.);
#189=EDGE_CURVE('',#238,#237,#31,.T.);
#190=EDGE_CURVE('',#239,#238,#270,.T.);
#191=EDGE_CURVE('',#240,#239,#32,.T.);
#192=EDGE_CURVE('',#241,#240,#33,.T.);
#193=EDGE_CURVE('',#242,#241,#34,.T.);
#194=EDGE_CURVE('',#243,#242,#271,.T.);
#195=EDGE_CURVE('',#244,#243,#35,.T.);
#196=EDGE_CURVE('',#245,#244,#272,.T.);
#197=EDGE_CURVE('',#246,#245,#36,.T.);
#198=EDGE_CURVE('',#247,#246,#273,.T.);
#199=EDGE_CURVE('',#235,#247,#37,.T.);
#200=EDGE_CURVE('',#248,#248,#274,.T.);
#201=EDGE_CURVE('',#249,#249,#275,.F.);
#202=EDGE_CURVE('',#250,#235,#38,.T.);
#203=EDGE_CURVE('',#251,#250,#276,.T.);
#204=EDGE_CURVE('',#251,#234,#39,.T.);
#205=EDGE_CURVE('',#252,#247,#40,.T.);
#206=EDGE_CURVE('',#250,#252,#41,.T.);
#207=EDGE_CURVE('',#253,#246,#42,.T.);
#208=EDGE_CURVE('',#252,#253,#277,.T.);
#209=EDGE_CURVE('',#254,#245,#43,.T.);
#210=EDGE_CURVE('',#253,#254,#44,.T.);
#211=EDGE_CURVE('',#255,#244,#45,.T.);
#212=EDGE_CURVE('',#254,#255,#278,.T.);
#213=EDGE_CURVE('',#256,#243,#46,.T.);
#214=EDGE_CURVE('',#255,#256,#47,.T.);
#215=EDGE_CURVE('',#257,#242,#48,.T.);
#216=EDGE_CURVE('',#256,#257,#279,.T.);
#217=EDGE_CURVE('',#258,#241,#49,.T.);
#218=EDGE_CURVE('',#257,#258,#50,.T.);
#219=EDGE_CURVE('',#259,#240,#51,.T.);
#220=EDGE_CURVE('',#258,#259,#52,.T.);
#221=EDGE_CURVE('',#260,#239,#53,.T.);
#222=EDGE_CURVE('',#259,#260,#54,.T.);
#223=EDGE_CURVE('',#261,#238,#55,.T.);
#224=EDGE_CURVE('',#260,#261,#280,.T.);
#225=EDGE_CURVE('',#262,#237,#56,.T.);
#226=EDGE_CURVE('',#261,#262,#57,.T.);
#227=EDGE_CURVE('',#263,#236,#58,.T.);
#228=EDGE_CURVE('',#262,#263,#281,.T.);
#229=EDGE_CURVE('',#263,#251,#59,.T.);
#230=EDGE_CURVE('',#264,#264,#282,.T.);
#231=EDGE_CURVE('',#265,#265,#283,.T.);
#232=EDGE_CURVE('',#266,#266,#284,.T.);
#233=EDGE_CURVE('',#267,#267,#285,.T.);
#234=VERTEX_POINT('',#544);
#235=VERTEX_POINT('',#545);
#236=VERTEX_POINT('',#547);
#237=VERTEX_POINT('',#549);
#238=VERTEX_POINT('',#551);
#239=VERTEX_POINT('',#553);
#240=VERTEX_POINT('',#555);
#241=VERTEX_POINT('',#557);
#242=VERTEX_POINT('',#559);
#243=VERTEX_POINT('',#561);
#244=VERTEX_POINT('',#563);
#245=VERTEX_POINT('',#565);
#246=VERTEX_POINT('',#567);
#247=VERTEX_POINT('',#569);
#248=VERTEX_POINT('',#572);
#249=VERTEX_POINT('',#574);
#250=VERTEX_POINT('',#577);
#251=VERTEX_POINT('',#579);
#252=VERTEX_POINT('',#583);
#253=VERTEX_POINT('',#587);
#254=VERTEX_POINT('',#591);
#255=VERTEX_POINT('',#595);
#256=VERTEX_POINT('',#599);
#257=VERTEX_POINT('',#603);
#258=VERTEX_POINT('',#607);
#259=VERTEX_POINT('',#611);
#260=VERTEX_POINT('',#615);
#261=VERTEX_POINT('',#619);
#262=VERTEX_POINT('',#623);
#263=VERTEX_POINT('',#627);
#264=VERTEX_POINT('',#634);
#265=VERTEX_POINT('',#636);
#266=VERTEX_POINT('',#641);
#267=VERTEX_POINT('',#644);
#268=CIRCLE('',#390,1.4999999718);
#269=CIRCLE('',#391,2.);
#270=CIRCLE('',#392,1.9999999624);
#271=CIRCLE('',#393,1.9999999624);
#272=CIRCLE('',#394,1.9999999624);
#273=CIRCLE('',#395,1.4999999718);
#274=CIRCLE('',#396,1.38126935440603);
#275=CIRCLE('',#397,1.38126935440739);
#276=CIRCLE('',#399,1.4999999718);
#277=CIRCLE('',#402,1.4999999718);
#278=CIRCLE('',#405,1.9999999624);
#279=CIRCLE('',#408,1.9999999624);
#280=CIRCLE('',#413,1.9999999624);
#281=CIRCLE('',#416,2.);
#282=CIRCLE('',#420,1.49096510010316);
#283=CIRCLE('',#421,1.24111739447498);
#284=CIRCLE('',#425,1.24111739447498);
#285=CIRCLE('',#427,1.49096510010588);
#286=EDGE_LOOP('',(#90,#91,#92,#93,#94,#95,#96,#97,#98,#99,#100,#101,#102,
#103));
#287=EDGE_LOOP('',(#104));
#288=EDGE_LOOP('',(#105));
#289=EDGE_LOOP('',(#106,#107,#108,#109));
#290=EDGE_LOOP('',(#110,#111,#112,#113));
#291=EDGE_LOOP('',(#114,#115,#116,#117));
#292=EDGE_LOOP('',(#118,#119,#120,#121));
#293=EDGE_LOOP('',(#122,#123,#124,#125));
#294=EDGE_LOOP('',(#126,#127,#128,#129));
#295=EDGE_LOOP('',(#130,#131,#132,#133));
#296=EDGE_LOOP('',(#134,#135,#136,#137));
#297=EDGE_LOOP('',(#138,#139,#140,#141));
#298=EDGE_LOOP('',(#142,#143,#144,#145));
#299=EDGE_LOOP('',(#146,#147,#148,#149));
#300=EDGE_LOOP('',(#150,#151,#152,#153));
#301=EDGE_LOOP('',(#154,#155,#156,#157));
#302=EDGE_LOOP('',(#158,#159,#160,#161));
#303=EDGE_LOOP('',(#162,#163,#164,#165,#166,#167,#168,#169,#170,#171,#172,
#173,#174,#175));
#304=EDGE_LOOP('',(#176));
#305=EDGE_LOOP('',(#177));
#306=EDGE_LOOP('',(#178));
#307=EDGE_LOOP('',(#179));
#308=EDGE_LOOP('',(#180));
#309=EDGE_LOOP('',(#181));
#310=EDGE_LOOP('',(#182));
#311=EDGE_LOOP('',(#183));
#312=EDGE_LOOP('',(#184));
#313=EDGE_LOOP('',(#185));
#314=FACE_BOUND('',#286,.T.);
#315=FACE_BOUND('',#287,.T.);
#316=FACE_BOUND('',#288,.T.);
#317=FACE_BOUND('',#289,.T.);
#318=FACE_BOUND('',#290,.T.);
#319=FACE_BOUND('',#291,.T.);
#320=FACE_BOUND('',#292,.T.);
#321=FACE_BOUND('',#293,.T.);
#322=FACE_BOUND('',#294,.T.);
#323=FACE_BOUND('',#295,.T.);
#324=FACE_BOUND('',#296,.T.);
#325=FACE_BOUND('',#297,.T.);
#326=FACE_BOUND('',#298,.T.);
#327=FACE_BOUND('',#299,.T.);
#328=FACE_BOUND('',#300,.T.);
#329=FACE_BOUND('',#301,.T.);
#330=FACE_BOUND('',#302,.T.);
#331=FACE_BOUND('',#303,.T.);
#332=FACE_BOUND('',#304,.T.);
#333=FACE_BOUND('',#305,.T.);
#334=FACE_BOUND('',#306,.T.);
#335=FACE_BOUND('',#307,.T.);
#336=FACE_BOUND('',#308,.T.);
#337=FACE_BOUND('',#309,.T.);
#338=FACE_BOUND('',#310,.T.);
#339=FACE_BOUND('',#311,.T.);
#340=FACE_BOUND('',#312,.T.);
#341=FACE_BOUND('',#313,.T.);
#342=PLANE('',#389);
#343=PLANE('',#400);
#344=PLANE('',#403);
#345=PLANE('',#406);
#346=PLANE('',#409);
#347=PLANE('',#410);
#348=PLANE('',#411);
#349=PLANE('',#414);
#350=PLANE('',#417);
#351=PLANE('',#418);
#352=PLANE('',#423);
#353=PLANE('',#424);
#354=ADVANCED_FACE('',(#314,#315,#316),#342,.F.);
#355=ADVANCED_FACE('',(#317),#24,.T.);
#356=ADVANCED_FACE('',(#318),#343,.F.);
#357=ADVANCED_FACE('',(#319),#25,.T.);
#358=ADVANCED_FACE('',(#320),#344,.F.);
#359=ADVANCED_FACE('',(#321),#26,.T.);
#360=ADVANCED_FACE('',(#322),#345,.F.);
#361=ADVANCED_FACE('',(#323),#27,.T.);
#362=ADVANCED_FACE('',(#324),#346,.F.);
#363=ADVANCED_FACE('',(#325),#347,.F.);
#364=ADVANCED_FACE('',(#326),#348,.F.);
#365=ADVANCED_FACE('',(#327),#28,.T.);
#366=ADVANCED_FACE('',(#328),#349,.F.);
#367=ADVANCED_FACE('',(#329),#29,.T.);
#368=ADVANCED_FACE('',(#330),#350,.F.);
#369=ADVANCED_FACE('',(#331),#351,.T.);
#370=ADVANCED_FACE('',(#332,#333),#22,.T.);
#371=ADVANCED_FACE('',(#334,#335),#20,.T.);
#372=ADVANCED_FACE('',(#336),#352,.T.);
#373=ADVANCED_FACE('',(#337),#353,.F.);
#374=ADVANCED_FACE('',(#338,#339),#21,.T.);
#375=ADVANCED_FACE('',(#340,#341),#23,.T.);
#376=CLOSED_SHELL('',(#354,#355,#356,#357,#358,#359,#360,#361,#362,#363,
#364,#365,#366,#367,#368,#369,#370,#371,#372,#373,#374,#375));
#377=STYLED_ITEM('',(#378),#385);
#378=PRESENTATION_STYLE_ASSIGNMENT((#379));
#379=SURFACE_STYLE_USAGE(.BOTH.,#380);
#380=SURFACE_SIDE_STYLE('',(#381));
#381=SURFACE_STYLE_FILL_AREA(#382);
#382=FILL_AREA_STYLE('',(#383));
#383=FILL_AREA_STYLE_COLOUR('',#384);
#384=COLOUR_RGB('',0.,0.5,0.);
#385=MANIFOLD_SOLID_BREP('D-BKF-2ES-2,5_Bloque',#376);
#386=SHAPE_DEFINITION_REPRESENTATION(#652,#387);
#387=SHAPE_REPRESENTATION('D-BKF-2ES-2,5_Bloque',(#388),#647);
#388=AXIS2_PLACEMENT_3D('',#541,#429,#430);
#389=AXIS2_PLACEMENT_3D('',#542,#431,#432);
#390=AXIS2_PLACEMENT_3D('',#543,#433,#434);
#391=AXIS2_PLACEMENT_3D('',#548,#436,#437);
#392=AXIS2_PLACEMENT_3D('',#552,#439,#440);
#393=AXIS2_PLACEMENT_3D('',#560,#444,#445);
#394=AXIS2_PLACEMENT_3D('',#564,#447,#448);
#395=AXIS2_PLACEMENT_3D('',#568,#450,#451);
#396=AXIS2_PLACEMENT_3D('',#571,#453,#454);
#397=AXIS2_PLACEMENT_3D('',#573,#455,#456);
#398=AXIS2_PLACEMENT_3D('',#575,#457,#458);
#399=AXIS2_PLACEMENT_3D('',#578,#460,#461);
#400=AXIS2_PLACEMENT_3D('',#581,#463,#464);
#401=AXIS2_PLACEMENT_3D('',#585,#467,#468);
#402=AXIS2_PLACEMENT_3D('',#588,#470,#471);
#403=AXIS2_PLACEMENT_3D('',#589,#472,#473);
#404=AXIS2_PLACEMENT_3D('',#593,#476,#477);
#405=AXIS2_PLACEMENT_3D('',#596,#479,#480);
#406=AXIS2_PLACEMENT_3D('',#597,#481,#482);
#407=AXIS2_PLACEMENT_3D('',#601,#485,#486);
#408=AXIS2_PLACEMENT_3D('',#604,#488,#489);
#409=AXIS2_PLACEMENT_3D('',#605,#490,#491);
#410=AXIS2_PLACEMENT_3D('',#609,#494,#495);
#411=AXIS2_PLACEMENT_3D('',#613,#498,#499);
#412=AXIS2_PLACEMENT_3D('',#617,#502,#503);
#413=AXIS2_PLACEMENT_3D('',#620,#505,#506);
#414=AXIS2_PLACEMENT_3D('',#621,#507,#508);
#415=AXIS2_PLACEMENT_3D('',#625,#511,#512);
#416=AXIS2_PLACEMENT_3D('',#628,#514,#515);
#417=AXIS2_PLACEMENT_3D('',#629,#516,#517);
#418=AXIS2_PLACEMENT_3D('',#631,#519,#520);
#419=AXIS2_PLACEMENT_3D('',#632,#521,#522);
#420=AXIS2_PLACEMENT_3D('',#633,#523,#524);
#421=AXIS2_PLACEMENT_3D('',#635,#525,#526);
#422=AXIS2_PLACEMENT_3D('',#637,#527,#528);
#423=AXIS2_PLACEMENT_3D('',#638,#529,#530);
#424=AXIS2_PLACEMENT_3D('',#639,#531,#532);
#425=AXIS2_PLACEMENT_3D('',#640,#533,#534);
#426=AXIS2_PLACEMENT_3D('',#642,#535,#536);
#427=AXIS2_PLACEMENT_3D('',#643,#537,#538);
#428=AXIS2_PLACEMENT_3D('',#645,#539,#540);
#429=DIRECTION('',(0.,0.,1.));
#430=DIRECTION('',(1.,0.,0.));
#431=DIRECTION('',(0.,-1.,0.));
#432=DIRECTION('',(0.,0.,-1.));
#433=DIRECTION('',(0.,-1.,0.));
#434=DIRECTION('',(0.,0.,-1.));
#435=DIRECTION('',(-0.258814956962958,0.,0.96592692169349));
#436=DIRECTION('',(0.,-1.,0.));
#437=DIRECTION('',(0.,0.,-1.));
#438=DIRECTION('',(4.22996038753435E-6,0.,0.999999999991054));
#439=DIRECTION('',(0.,-1.,0.));
#440=DIRECTION('',(0.,0.,-1.));
#441=DIRECTION('',(0.374610517580253,0.,0.927182269091819));
#442=DIRECTION('',(0.999999999991044,0.,-4.23235110697478E-6));
#443=DIRECTION('',(0.374602669244896,0.,-0.927185440025133));
#444=DIRECTION('',(0.,-1.,0.));
#445=DIRECTION('',(0.,0.,-1.));
#446=DIRECTION('',(-4.23235095377685E-6,0.,-0.999999999991044));
#447=DIRECTION('',(0.,-1.,0.));
#448=DIRECTION('',(0.,0.,-1.));
#449=DIRECTION('',(-0.258823133237435,0.,-0.965924730867347));
#450=DIRECTION('',(0.,-1.,0.));
#451=DIRECTION('',(0.,0.,-1.));
#452=DIRECTION('',(-0.999999999991044,0.,4.23235110680372E-6));
#453=DIRECTION('',(0.,1.,0.));
#454=DIRECTION('',(0.,0.,1.));
#455=DIRECTION('',(0.,-1.,0.));
#456=DIRECTION('',(0.,0.,-1.));
#457=DIRECTION('',(0.,1.,0.));
#458=DIRECTION('',(0.,0.,1.));
#459=DIRECTION('',(0.,1.,0.));
#460=DIRECTION('',(0.,-1.,0.));
#461=DIRECTION('',(0.,0.,-1.));
#462=DIRECTION('',(0.,1.,0.));
#463=DIRECTION('',(-4.23235110680372E-6,0.,-0.999999999991043));
#464=DIRECTION('',(-0.999999999991044,0.,4.23235110680372E-6));
#465=DIRECTION('',(0.,1.,0.));
#466=DIRECTION('',(-0.999999999991044,0.,4.23235110680372E-6));
#467=DIRECTION('',(0.,1.,0.));
#468=DIRECTION('',(0.,0.,1.));
#469=DIRECTION('',(0.,1.,0.));
#470=DIRECTION('',(0.,-1.,0.));
#471=DIRECTION('',(0.,0.,-1.));
#472=DIRECTION('',(0.965924730867347,0.,-0.258823133237435));
#473=DIRECTION('',(-0.258823133237435,0.,-0.965924730867347));
#474=DIRECTION('',(0.,1.,0.));
#475=DIRECTION('',(-0.258823133237435,0.,-0.965924730867347));
#476=DIRECTION('',(0.,1.,0.));
#477=DIRECTION('',(0.,0.,1.));
#478=DIRECTION('',(0.,1.,0.));
#479=DIRECTION('',(0.,-1.,0.));
#480=DIRECTION('',(0.,0.,-1.));
#481=DIRECTION('',(0.999999999991044,0.,-4.23235095377685E-6));
#482=DIRECTION('',(-4.23235095377685E-6,0.,-0.999999999991044));
#483=DIRECTION('',(0.,1.,0.));
#484=DIRECTION('',(-4.23235095377685E-6,0.,-0.999999999991044));
#485=DIRECTION('',(0.,1.,0.));
#486=DIRECTION('',(0.,0.,1.));
#487=DIRECTION('',(0.,1.,0.));
#488=DIRECTION('',(0.,-1.,0.));
#489=DIRECTION('',(0.,0.,-1.));
#490=DIRECTION('',(0.927185440025132,0.,0.374602669244896));
#491=DIRECTION('',(0.374602669244896,0.,-0.927185440025133));
#492=DIRECTION('',(0.,1.,0.));
#493=DIRECTION('',(0.374602669244896,0.,-0.927185440025133));
#494=DIRECTION('',(4.23235110697478E-6,0.,0.999999999991043));
#495=DIRECTION('',(0.999999999991044,0.,-4.23235110697478E-6));
#496=DIRECTION('',(0.,1.,0.));
#497=DIRECTION('',(0.999999999991044,0.,-4.23235110697478E-6));
#498=DIRECTION('',(-0.927182269091819,0.,0.374610517580253));
#499=DIRECTION('',(0.374610517580253,0.,0.927182269091819));
#500=DIRECTION('',(0.,1.,0.));
#501=DIRECTION('',(0.374610517580253,0.,0.927182269091819));
#502=DIRECTION('',(0.,1.,0.));
#503=DIRECTION('',(0.,0.,1.));
#504=DIRECTION('',(0.,1.,0.));
#505=DIRECTION('',(0.,-1.,0.));
#506=DIRECTION('',(0.,0.,-1.));
#507=DIRECTION('',(-0.999999999991054,0.,4.22996038753435E-6));
#508=DIRECTION('',(4.22996038753435E-6,0.,0.999999999991054));
#509=DIRECTION('',(0.,1.,0.));
#510=DIRECTION('',(4.22996038753435E-6,0.,0.999999999991054));
#511=DIRECTION('',(0.,1.,0.));
#512=DIRECTION('',(0.,0.,1.));
#513=DIRECTION('',(0.,1.,0.));
#514=DIRECTION('',(0.,-1.,0.));
#515=DIRECTION('',(0.,0.,-1.));
#516=DIRECTION('',(-0.96592692169349,0.,-0.258814956962958));
#517=DIRECTION('',(-0.258814956962958,0.,0.96592692169349));
#518=DIRECTION('',(-0.258814956962958,0.,0.96592692169349));
#519=DIRECTION('',(0.,-1.,0.));
#520=DIRECTION('',(0.,0.,-1.));
#521=DIRECTION('',(0.,1.,0.));
#522=DIRECTION('',(0.,0.,1.));
#523=DIRECTION('',(0.,1.,0.));
#524=DIRECTION('',(0.,0.,1.));
#525=DIRECTION('',(0.,1.,0.));
#526=DIRECTION('',(0.,0.,1.));
#527=DIRECTION('',(0.,1.,0.));
#528=DIRECTION('',(0.,0.,1.));
#529=DIRECTION('',(0.,1.,0.));
#530=DIRECTION('',(0.,0.,1.));
#531=DIRECTION('',(0.,-1.,0.));
#532=DIRECTION('',(0.,0.,-1.));
#533=DIRECTION('',(0.,1.,0.));
#534=DIRECTION('',(0.,0.,1.));
#535=DIRECTION('',(0.,1.,0.));
#536=DIRECTION('',(0.,0.,1.));
#537=DIRECTION('',(0.,1.,0.));
#538=DIRECTION('',(0.,0.,1.));
#539=DIRECTION('',(0.,1.,0.));
#540=DIRECTION('',(0.,0.,1.));
#541=CARTESIAN_POINT('',(0.,0.,0.));
#542=CARTESIAN_POINT('',(36.5121871479435,0.,11.0249269570988));
#543=CARTESIAN_POINT('',(36.5121871479435,0.,11.0249269570988));
#544=CARTESIAN_POINT('',(37.9610775032446,0.,11.4131493852446));
#545=CARTESIAN_POINT('',(36.5121871479435,0.,12.5249269288988));
#546=CARTESIAN_POINT('',(39.5819756434958,0.,5.36377275970595));
#547=CARTESIAN_POINT('',(39.5819756434958,0.,5.36377275970595));
#548=CARTESIAN_POINT('',(37.6501218001088,0.,4.84614284578003));
#549=CARTESIAN_POINT('',(39.6501218000909,0.,4.84613438585927));
#550=CARTESIAN_POINT('',(39.6500816666778,0.,-4.64175898344175));
#551=CARTESIAN_POINT('',(39.6500816666778,0.,-4.64175898344175));
#552=CARTESIAN_POINT('',(37.6500817042957,0.,-4.64175052352114));
#553=CARTESIAN_POINT('',(39.5044462076173,0.,-5.39097154459629));
#554=CARTESIAN_POINT('',(35.1973250613569,0.,-16.0513405685053));
#555=CARTESIAN_POINT('',(35.1973250613569,0.,-16.0513405685053));
#556=CARTESIAN_POINT('',(-35.1974609537425,0.,-16.0510426330548));
#557=CARTESIAN_POINT('',(-35.1974609537425,0.,-16.0510426330548));
#558=CARTESIAN_POINT('',(-39.5044918596539,0.,-5.39063715930574));
#559=CARTESIAN_POINT('',(-39.5044918596539,0.,-5.39063715930574));
#560=CARTESIAN_POINT('',(-37.6501210144658,0.,-4.64143183490102));
#561=CARTESIAN_POINT('',(-39.6501209768479,0.,-4.64142337019927));
#562=CARTESIAN_POINT('',(-39.6500808207536,0.,4.84646994066085));
#563=CARTESIAN_POINT('',(-39.6500808207536,0.,4.84646994066085));
#564=CARTESIAN_POINT('',(-37.6500808583715,0.,4.84646147595906));
#565=CARTESIAN_POINT('',(-39.5819302837874,0.,5.3641077327022));
#566=CARTESIAN_POINT('',(-37.960980916938,0.,11.4134707140526));
#567=CARTESIAN_POINT('',(-37.960980916938,0.,11.4134707140526));
#568=CARTESIAN_POINT('',(-36.512093847876,0.,11.0252360214953));
#569=CARTESIAN_POINT('',(-36.512093847876,0.,12.5252359932953));
#570=CARTESIAN_POINT('',(36.5121871479435,0.,12.5249269288988));
#571=CARTESIAN_POINT('',(37.7113768171761,0.,-2.94661785589746));
#572=CARTESIAN_POINT('',(37.7113768171761,0.,-1.56534850149143));
#573=CARTESIAN_POINT('',(-37.7114017820319,0.,-2.94629864021696));
#574=CARTESIAN_POINT('',(-37.7114017820319,0.,-4.32756799462435));
#575=CARTESIAN_POINT('',(36.5121871479435,-1.5,11.0249269570988));
#576=CARTESIAN_POINT('',(36.5121871479435,-1.5,12.5249269288988));
#577=CARTESIAN_POINT('',(36.5121871479435,-1.5,12.5249269288988));
#578=CARTESIAN_POINT('',(36.5121871479435,-1.5,11.0249269570988));
#579=CARTESIAN_POINT('',(37.9610775032446,-1.5,11.4131493852446));
#580=CARTESIAN_POINT('',(37.9610775032446,-1.5,11.4131493852446));
#581=CARTESIAN_POINT('',(36.5121871479435,-1.5,12.5249269288988));
#582=CARTESIAN_POINT('',(-36.512093847876,-1.5,12.5252359932953));
#583=CARTESIAN_POINT('',(-36.512093847876,-1.5,12.5252359932953));
#584=CARTESIAN_POINT('',(36.5121871479435,-1.5,12.5249269288988));
#585=CARTESIAN_POINT('',(-36.512093847876,-1.5,11.0252360214953));
#586=CARTESIAN_POINT('',(-37.960980916938,-1.5,11.4134707140526));
#587=CARTESIAN_POINT('',(-37.960980916938,-1.5,11.4134707140526));
#588=CARTESIAN_POINT('',(-36.512093847876,-1.5,11.0252360214953));
#589=CARTESIAN_POINT('',(-37.960980916938,-1.5,11.4134707140526));
#590=CARTESIAN_POINT('',(-39.5819302837874,-1.5,5.3641077327022));
#591=CARTESIAN_POINT('',(-39.5819302837874,-1.5,5.3641077327022));
#592=CARTESIAN_POINT('',(-37.960980916938,-1.5,11.4134707140526));
#593=CARTESIAN_POINT('',(-37.6500808583715,-1.5,4.84646147595906));
#594=CARTESIAN_POINT('',(-39.6500808207536,-1.5,4.84646994066085));
#595=CARTESIAN_POINT('',(-39.6500808207536,-1.5,4.84646994066085));
#596=CARTESIAN_POINT('',(-37.6500808583715,-1.5,4.84646147595906));
#597=CARTESIAN_POINT('',(-39.6500808207536,-1.5,4.84646994066085));
#598=CARTESIAN_POINT('',(-39.6501209768479,-1.5,-4.64142337019927));
#599=CARTESIAN_POINT('',(-39.6501209768479,-1.5,-4.64142337019927));
#600=CARTESIAN_POINT('',(-39.6500808207536,-1.5,4.84646994066085));
#601=CARTESIAN_POINT('',(-37.6501210144658,-1.5,-4.64143183490102));
#602=CARTESIAN_POINT('',(-39.5044918596539,-1.5,-5.39063715930574));
#603=CARTESIAN_POINT('',(-39.5044918596539,-1.5,-5.39063715930574));
#604=CARTESIAN_POINT('',(-37.6501210144658,-1.5,-4.64143183490102));
#605=CARTESIAN_POINT('',(-39.5044918596539,-1.5,-5.39063715930574));
#606=CARTESIAN_POINT('',(-35.1974609537425,-1.5,-16.0510426330548));
#607=CARTESIAN_POINT('',(-35.1974609537425,-1.5,-16.0510426330548));
#608=CARTESIAN_POINT('',(-39.5044918596539,-1.5,-5.39063715930574));
#609=CARTESIAN_POINT('',(-35.1974609537425,-1.5,-16.0510426330548));
#610=CARTESIAN_POINT('',(35.1973250613569,-1.5,-16.0513405685053));
#611=CARTESIAN_POINT('',(35.1973250613569,-1.5,-16.0513405685053));
#612=CARTESIAN_POINT('',(-35.1974609537425,-1.5,-16.0510426330548));
#613=CARTESIAN_POINT('',(35.1973250613569,-1.5,-16.0513405685053));
#614=CARTESIAN_POINT('',(39.5044462076173,-1.5,-5.39097154459629));
#615=CARTESIAN_POINT('',(39.5044462076173,-1.5,-5.39097154459629));
#616=CARTESIAN_POINT('',(35.1973250613569,-1.5,-16.0513405685053));
#617=CARTESIAN_POINT('',(37.6500817042957,-1.5,-4.64175052352114));
#618=CARTESIAN_POINT('',(39.6500816666778,-1.5,-4.64175898344175));
#619=CARTESIAN_POINT('',(39.6500816666778,-1.5,-4.64175898344175));
#620=CARTESIAN_POINT('',(37.6500817042957,-1.5,-4.64175052352114));
#621=CARTESIAN_POINT('',(39.6500816666778,-1.5,-4.64175898344175));
#622=CARTESIAN_POINT('',(39.6501218000909,-1.5,4.84613438585927));
#623=CARTESIAN_POINT('',(39.6501218000909,-1.5,4.84613438585927));
#624=CARTESIAN_POINT('',(39.6500816666778,-1.5,-4.64175898344175));
#625=CARTESIAN_POINT('',(37.6501218001088,-1.5,4.84614284578003));
#626=CARTESIAN_POINT('',(39.5819756434958,-1.5,5.36377275970595));
#627=CARTESIAN_POINT('',(39.5819756434958,-1.5,5.36377275970595));
#628=CARTESIAN_POINT('',(37.6501218001088,-1.5,4.84614284578003));
#629=CARTESIAN_POINT('',(39.5819756434958,-1.5,5.36377275970595));
#630=CARTESIAN_POINT('',(39.5819756434958,-1.5,5.36377275970595));
#631=CARTESIAN_POINT('',(36.5121871479435,-1.5,11.0249269570988));
#632=CARTESIAN_POINT('',(37.7113768171761,3.15,-2.94661785589746));
#633=CARTESIAN_POINT('',(37.7113768171761,3.14127512581308,-2.94661785589746));
#634=CARTESIAN_POINT('',(37.7113768171761,3.14127512581308,-1.4556527557943));
#635=CARTESIAN_POINT('',(37.7113768171761,3.4,-2.94661785589746));
#636=CARTESIAN_POINT('',(37.7113768171761,3.4,-1.70550046142248));
#637=CARTESIAN_POINT('',(37.7113768171761,3.14127512581308,-2.94661785589746));
#638=CARTESIAN_POINT('',(37.7113768171761,3.4,-2.94661785589746));
#639=CARTESIAN_POINT('',(-38.9525191764957,3.39999999999979,-2.94629338737238));
#640=CARTESIAN_POINT('',(-37.7114017820319,3.39999999999957,-2.94629864021696));
#641=CARTESIAN_POINT('',(-37.7114017820319,3.39999999999957,-1.70518124574198));
#642=CARTESIAN_POINT('',(-37.7114017820319,0.,-2.94629864021696));
#643=CARTESIAN_POINT('',(-37.7114017820319,3.14127512581308,-2.94629864021696));
#644=CARTESIAN_POINT('',(-37.7114017820319,3.14127512581308,-1.45533354011108));
#645=CARTESIAN_POINT('',(-37.7114017820319,3.15,-2.94629864021696));
#646=MECHANICAL_DESIGN_GEOMETRIC_PRESENTATION_REPRESENTATION('',(#377),
#647);
#647=(
GEOMETRIC_REPRESENTATION_CONTEXT(3)
GLOBAL_UNCERTAINTY_ASSIGNED_CONTEXT((#648))
GLOBAL_UNIT_ASSIGNED_CONTEXT((#651,#650,#649))
REPRESENTATION_CONTEXT('D-BKF-2ES-2,5_Bloque','TOP_LEVEL_ASSEMBLY_PART')
);
#648=UNCERTAINTY_MEASURE_WITH_UNIT(LENGTH_MEASURE(0.005),#651,
'DISTANCE_ACCURACY_VALUE','Maximum Tolerance applied to model');
#649=(
NAMED_UNIT(*)
SI_UNIT($,.STERADIAN.)
SOLID_ANGLE_UNIT()
);
#650=(
NAMED_UNIT(*)
PLANE_ANGLE_UNIT()
SI_UNIT($,.RADIAN.)
);
#651=(
LENGTH_UNIT()
NAMED_UNIT(*)
SI_UNIT(.MILLI.,.METRE.)
);
#652=PRODUCT_DEFINITION_SHAPE('','',#653);
#653=PRODUCT_DEFINITION('','',#655,#654);
#654=PRODUCT_DEFINITION_CONTEXT('',#661,'design');
#655=PRODUCT_DEFINITION_FORMATION_WITH_SPECIFIED_SOURCE('','',#657,
 .NOT_KNOWN.);
#656=PRODUCT_RELATED_PRODUCT_CATEGORY('','',(#657));
#657=PRODUCT('D-BKF-2ES-2,5_Bloque','D-BKF-2ES-2,5_Bloque',
'D-BKF-2ES-2,5_Bloque',(#659));
#658=PRODUCT_CATEGORY('','');
#659=PRODUCT_CONTEXT('',#661,'mechanical');
#660=APPLICATION_PROTOCOL_DEFINITION('international standard',
'automotive_design',2010,#661);
#661=APPLICATION_CONTEXT(
'core data for automotive mechanical design processes');
ENDSEC;
END-ISO-10303-21;
